ISO-10303-21;
HEADER;
FILE_DESCRIPTION (( 'STEP AP214' ),
    '1' );
FILE_NAME ('217-2760 Release.STEP',
    '2014-01-23T23:12:20',
    ( '' ),
    ( '' ),
    'SwSTEP 2.0',
    'SolidWorks 2013',
    '' );
FILE_SCHEMA (( 'AUTOMOTIVE_DESIGN' ));
ENDSEC;

DATA;
#1 = PLANE ( 'NONE',  #41 ) ;
#2 =( NAMED_UNIT ( * ) SI_UNIT ( $, .STERADIAN. ) SOLID_ANGLE_UNIT ( ) );
#3 = VECTOR ( 'NONE', #200, 39.37007874015748100 ) ;
#4 =( NAMED_UNIT ( * ) PLANE_ANGLE_UNIT ( ) SI_UNIT ( $, .RADIAN. ) );
#5 = SURFACE_STYLE_FILL_AREA ( #127 ) ;
#6 =( CONVERSION_BASED_UNIT ( 'INCH', #20 ) LENGTH_UNIT ( ) NAMED_UNIT ( #146 ) );
#7 =( LENGTH_UNIT ( ) NAMED_UNIT ( * ) SI_UNIT ( $, .METRE. ) );
#8 = PRESENTATION_STYLE_ASSIGNMENT (( #123 ) ) ;
#9 = PRODUCT_DEFINITION_CONTEXT ( 'detailed design', #94, 'design' ) ;
#10 = SURFACE_STYLE_USAGE ( .BOTH. , #12 ) ;
#11 = VECTOR ( 'NONE', #196, 39.37007874015748100 ) ;
#12 = SURFACE_SIDE_STYLE ('',( #47 ) ) ;
#13 = CARTESIAN_POINT ( 'NONE',  ( -0.06249999999999995100, -0.06249999999999997900, 6.000000000000000900 ) ) ;
#14 = FILL_AREA_STYLE ('',( #45 ) ) ;
#15 = LINE ( 'NONE', #52, #69 ) ;
#16 = CARTESIAN_POINT ( 'NONE',  ( 0.06250000000000005600, -0.06249999999999997900, 6.000000000000000900 ) ) ;
#17 = LINE ( 'NONE', #42, #23 ) ;
#18 = DIRECTION ( 'NONE',  ( -0.0000000000000000000, -0.0000000000000000000, -1.000000000000000000 ) ) ;
#19 = CARTESIAN_POINT ( 'NONE',  ( -0.06249999999999995100, 0.06250000000000005600, -6.000000000000000900 ) ) ;
#20 = LENGTH_MEASURE_WITH_UNIT ( LENGTH_MEASURE( 0.02539999999999999900 ), #7 );
#21 = DIRECTION ( 'NONE',  ( 0.0000000000000000000, 0.0000000000000000000, 1.000000000000000000 ) ) ;
#22 = DIRECTION ( 'NONE',  ( 0.0000000000000000000, 1.000000000000000000, 0.0000000000000000000 ) ) ;
#23 = VECTOR ( 'NONE', #22, 39.37007874015748100 ) ;
#24 = DIRECTION ( 'NONE',  ( -1.000000000000000000, 0.0000000000000000000, 0.0000000000000000000 ) ) ;
#25 = LINE ( 'NONE', #166, #3 ) ;
#26 = FACE_OUTER_BOUND ( 'NONE', #106, .T. ) ;
#27 = ORIENTED_EDGE ( 'NONE', *, *, #194, .T. ) ;
#28 = UNCERTAINTY_MEASURE_WITH_UNIT (LENGTH_MEASURE( 1.000000000000000100E-005 ), #118, 'distance_accuracy_value', 'NONE');
#29 = PRODUCT ( '217-2760 Release', '217-2760 Release', '', ( #99 ) ) ;
#30 = CARTESIAN_POINT ( 'NONE',  ( -0.06249999999999995100, -0.06249999999999997900, -6.000000000000000900 ) ) ;
#31 = PLANE ( 'NONE',  #133 ) ;
#32 = CARTESIAN_POINT ( 'NONE',  ( -0.06249999999999995100, 0.06250000000000005600, 6.000000000000000900 ) ) ;
#33 = ADVANCED_FACE ( 'NONE', ( #171 ), #142, .T. ) ;
#34 = ADVANCED_FACE ( 'NONE', ( #62 ), #97, .F. ) ;
#35 = ADVANCED_FACE ( 'NONE', ( #70 ), #63, .F. ) ;
#36 = COLOUR_RGB ( '',0.7529411764705882200, 0.7529411764705882200, 0.7529411764705882200 ) ;
#37 = CARTESIAN_POINT ( 'NONE',  ( 0.06250000000000005600, -0.06249999999999997900, 6.000000000000000900 ) ) ;
#38 = CARTESIAN_POINT ( 'NONE',  ( 0.06250000000000005600, 0.06250000000000005600, 6.000000000000000900 ) ) ;
#39 = EDGE_CURVE ( 'NONE', #75, #178, #55, .T. ) ;
#40 = VECTOR ( 'NONE', #46, 39.37007874015748100 ) ;
#41 = AXIS2_PLACEMENT_3D ( 'NONE', #202, #77, #191 ) ;
#42 = CARTESIAN_POINT ( 'NONE',  ( 0.06250000000000005600, -0.06249999999999997900, -6.000000000000000900 ) ) ;
#43 = VECTOR ( 'NONE', #181, 39.37007874015748100 ) ;
#44 = PRESENTATION_STYLE_ASSIGNMENT (( #10 ) ) ;
#45 = FILL_AREA_STYLE_COLOUR ( '', #36 ) ;
#46 = DIRECTION ( 'NONE',  ( -1.000000000000000000, -0.0000000000000000000, -0.0000000000000000000 ) ) ;
#47 = SURFACE_STYLE_FILL_AREA ( #14 ) ;
#48 = CARTESIAN_POINT ( 'NONE',  ( -0.06249999999999995100, 0.06250000000000005600, -6.000000000000000900 ) ) ;
#49 = CARTESIAN_POINT ( 'NONE',  ( -0.06249999999999995100, -0.06249999999999997900, 6.000000000000000900 ) ) ;
#50 = VECTOR ( 'NONE', #79, 39.37007874015748100 ) ;
#51 = EDGE_CURVE ( 'NONE', #76, #141, #67, .T. ) ;
#52 = CARTESIAN_POINT ( 'NONE',  ( -0.06249999999999995100, -0.06249999999999997900, 6.000000000000000900 ) ) ;
#53 = CARTESIAN_POINT ( 'NONE',  ( 0.06250000000000005600, 0.06250000000000005600, -6.000000000000000900 ) ) ;
#54 = LENGTH_MEASURE_WITH_UNIT ( LENGTH_MEASURE( 0.02539999999999999900 ), #122 );
#55 = LINE ( 'NONE', #48, #40 ) ;
#56 = EDGE_LOOP ( 'NONE', ( #167, #84, #211, #195 ) ) ;
#57 = DIRECTION ( 'NONE',  ( -0.0000000000000000000, -0.0000000000000000000, -1.000000000000000000 ) ) ;
#58 = ORIENTED_EDGE ( 'NONE', *, *, #193, .T. ) ;
#59 = CARTESIAN_POINT ( 'NONE',  ( -0.06249999999999995100, -0.06249999999999997900, 6.000000000000000900 ) ) ;
#60 =( GEOMETRIC_REPRESENTATION_CONTEXT ( 3 ) GLOBAL_UNCERTAINTY_ASSIGNED_CONTEXT ( ( #134 ) ) GLOBAL_UNIT_ASSIGNED_CONTEXT ( ( #6, #4, #2 ) ) REPRESENTATION_CONTEXT ( 'NONE', 'WORKASPACE' ) );
#61 = CARTESIAN_POINT ( 'NONE',  ( 0.06250000000000005600, -0.06249999999999997900, -6.000000000000000900 ) ) ;
#62 = FACE_OUTER_BOUND ( 'NONE', #121, .T. ) ;
#63 = PLANE ( 'NONE',  #105 ) ;
#64 = MECHANICAL_DESIGN_GEOMETRIC_PRESENTATION_REPRESENTATION (  '', ( #96 ), #60 ) ;
#65 = DIRECTION ( 'NONE',  ( 0.0000000000000000000, -0.0000000000000000000, 1.000000000000000000 ) ) ;
#66 = DIRECTION ( 'NONE',  ( 0.0000000000000000000, 1.000000000000000000, 0.0000000000000000000 ) ) ;
#67 = LINE ( 'NONE', #59, #50 ) ;
#68 = PRESENTATION_LAYER_ASSIGNMENT (  '', '', ( #96 ) ) ;
#69 = VECTOR ( 'NONE', #137, 39.37007874015748100 ) ;
#70 = FACE_OUTER_BOUND ( 'NONE', #126, .T. ) ;
#71 = PRODUCT_DEFINITION_SHAPE ( 'NONE', 'NONE',  #162 ) ;
#72 = ORIENTED_EDGE ( 'NONE', *, *, #190, .T. ) ;
#73 = LINE ( 'NONE', #169, #186 ) ;
#74 = ORIENTED_EDGE ( 'NONE', *, *, #184, .T. ) ;
#75 = VERTEX_POINT ( 'NONE', #53 ) ;
#76 = VERTEX_POINT ( 'NONE', #49 ) ;
#77 = DIRECTION ( 'NONE',  ( 0.0000000000000000000, -1.000000000000000000, 0.0000000000000000000 ) ) ;
#78 = VECTOR ( 'NONE', #197, 39.37007874015748100 ) ;
#79 = DIRECTION ( 'NONE',  ( 1.000000000000000000, 0.0000000000000000000, 0.0000000000000000000 ) ) ;
#80 = LINE ( 'NONE', #199, #78 ) ;
#81 = ADVANCED_BREP_SHAPE_REPRESENTATION ( '217-2760 Release', ( #119, #164 ), #120 ) ;
#82 = VERTEX_POINT ( 'NONE', #32 ) ;
#83 = DIRECTION ( 'NONE',  ( 0.0000000000000000000, 0.0000000000000000000, -1.000000000000000000 ) ) ;
#84 = ORIENTED_EDGE ( 'NONE', *, *, #176, .T. ) ;
#85 = ORIENTED_EDGE ( 'NONE', *, *, #192, .T. ) ;
#86 = DIMENSIONAL_EXPONENTS ( 1.000000000000000000, 0.0000000000000000000, 0.0000000000000000000, 0.0000000000000000000, 0.0000000000000000000, 0.0000000000000000000, 0.0000000000000000000 ) ;
#87 = ORIENTED_EDGE ( 'NONE', *, *, #210, .F. ) ;
#88 = DIRECTION ( 'NONE',  ( 1.000000000000000000, 0.0000000000000000000, 0.0000000000000000000 ) ) ;
#89 = VECTOR ( 'NONE', #57, 39.37007874015748100 ) ;
#90 = CARTESIAN_POINT ( 'NONE',  ( -0.06249999999999995100, -0.06249999999999997900, 6.000000000000000900 ) ) ;
#91 = VERTEX_POINT ( 'NONE', #38 ) ;
#92 = APPLICATION_PROTOCOL_DEFINITION ( 'draft international standard', 'automotive_design', 1998, #94 ) ;
#93 = ORIENTED_EDGE ( 'NONE', *, *, #190, .F. ) ;
#94 = APPLICATION_CONTEXT ( 'automotive_design' ) ;
#95 = ADVANCED_FACE ( 'NONE', ( #26 ), #31, .F. ) ;
#96 = STYLED_ITEM ( 'NONE', ( #44 ), #119 ) ;
#97 = PLANE ( 'NONE',  #107 ) ;
#98 = FACE_OUTER_BOUND ( 'NONE', #102, .T. ) ;
#99 = PRODUCT_CONTEXT ( 'NONE', #128, 'mechanical' ) ;
#100 = CARTESIAN_POINT ( 'NONE',  ( 0.06250000000000005600, 0.06250000000000005600, -6.000000000000000900 ) ) ;
#101 = DIRECTION ( 'NONE',  ( 1.000000000000000000, 0.0000000000000000000, 0.0000000000000000000 ) ) ;
#102 = EDGE_LOOP ( 'NONE', ( #114, #205, #111, #72 ) ) ;
#103 = CARTESIAN_POINT ( 'NONE',  ( -0.06249999999999995100, -0.06249999999999997900, -6.000000000000000900 ) ) ;
#104 = DIRECTION ( 'NONE',  ( 0.0000000000000000000, 0.0000000000000000000, -1.000000000000000000 ) ) ;
#105 = AXIS2_PLACEMENT_3D ( 'NONE', #90, #66, #65 ) ;
#106 = EDGE_LOOP ( 'NONE', ( #85, #93, #87, #58 ) ) ;
#107 = AXIS2_PLACEMENT_3D ( 'NONE', #13, #88, #83 ) ;
#108 = ORIENTED_EDGE ( 'NONE', *, *, #51, .F. ) ;
#109 = LINE ( 'NONE', #168, #43 ) ;
#110 = DIRECTION ( 'NONE',  ( 0.0000000000000000000, 0.0000000000000000000, 1.000000000000000000 ) ) ;
#111 = ORIENTED_EDGE ( 'NONE', *, *, #176, .F. ) ;
#112 = LINE ( 'NONE', #103, #11 ) ;
#113 =( NAMED_UNIT ( * ) SI_UNIT ( $, .STERADIAN. ) SOLID_ANGLE_UNIT ( ) );
#114 = ORIENTED_EDGE ( 'NONE', *, *, #39, .T. ) ;
#115 =( NAMED_UNIT ( * ) PLANE_ANGLE_UNIT ( ) SI_UNIT ( $, .RADIAN. ) );
#116 = DIRECTION ( 'NONE',  ( -1.000000000000000000, 0.0000000000000000000, -0.0000000000000000000 ) ) ;
#117 = CARTESIAN_POINT ( 'NONE',  ( 0.06250000000000005600, -0.06249999999999997900, 6.000000000000000900 ) ) ;
#118 =( CONVERSION_BASED_UNIT ( 'INCH', #54 ) LENGTH_UNIT ( ) NAMED_UNIT ( #86 ) );
#119 = MANIFOLD_SOLID_BREP ( 'Boss-Extrude1', #207 ) ;
#120 =( GEOMETRIC_REPRESENTATION_CONTEXT ( 3 ) GLOBAL_UNCERTAINTY_ASSIGNED_CONTEXT ( ( #208 ) ) GLOBAL_UNIT_ASSIGNED_CONTEXT ( ( #149, #143, #140 ) ) REPRESENTATION_CONTEXT ( 'NONE', 'WORKASPACE' ) );
#121 = EDGE_LOOP ( 'NONE', ( #74, #145, #152, #131 ) ) ;
#122 =( LENGTH_UNIT ( ) NAMED_UNIT ( * ) SI_UNIT ( $, .METRE. ) );
#123 = SURFACE_STYLE_USAGE ( .BOTH. , #125 ) ;
#124 = LINE ( 'NONE', #175, #89 ) ;
#125 = SURFACE_SIDE_STYLE ('',( #5 ) ) ;
#126 = EDGE_LOOP ( 'NONE', ( #157, #182, #108, #27 ) ) ;
#127 = FILL_AREA_STYLE ('',( #155 ) ) ;
#128 = APPLICATION_CONTEXT ( 'automotive_design' ) ;
#129 = AXIS2_PLACEMENT_3D ( 'NONE', #183, #179, #173 ) ;
#130 = EDGE_LOOP ( 'NONE', ( #136, #158, #148, #165 ) ) ;
#131 = ORIENTED_EDGE ( 'NONE', *, *, #188, .T. ) ;
#132 = LENGTH_MEASURE_WITH_UNIT ( LENGTH_MEASURE( 0.02539999999999999900 ), #151 );
#133 = AXIS2_PLACEMENT_3D ( 'NONE', #37, #24, #21 ) ;
#134 = UNCERTAINTY_MEASURE_WITH_UNIT (LENGTH_MEASURE( 1.000000000000000100E-005 ), #6, 'distance_accuracy_value', 'NONE');
#135 = APPLICATION_PROTOCOL_DEFINITION ( 'draft international standard', 'automotive_design', 1998, #128 ) ;
#136 = ORIENTED_EDGE ( 'NONE', *, *, #192, .F. ) ;
#137 = DIRECTION ( 'NONE',  ( -0.0000000000000000000, -1.000000000000000000, -0.0000000000000000000 ) ) ;
#138 = VECTOR ( 'NONE', #153, 39.37007874015748100 ) ;
#139 = SHAPE_DEFINITION_REPRESENTATION ( #71, #81 ) ;
#140 =( NAMED_UNIT ( * ) SI_UNIT ( $, .STERADIAN. ) SOLID_ANGLE_UNIT ( ) );
#141 = VERTEX_POINT ( 'NONE', #16 ) ;
#142 = PLANE ( 'NONE',  #147 ) ;
#143 =( NAMED_UNIT ( * ) PLANE_ANGLE_UNIT ( ) SI_UNIT ( $, .RADIAN. ) );
#144 = VERTEX_POINT ( 'NONE', #30 ) ;
#145 = ORIENTED_EDGE ( 'NONE', *, *, #194, .F. ) ;
#146 = DIMENSIONAL_EXPONENTS ( 1.000000000000000000, 0.0000000000000000000, 0.0000000000000000000, 0.0000000000000000000, 0.0000000000000000000, 0.0000000000000000000, 0.0000000000000000000 ) ;
#147 = AXIS2_PLACEMENT_3D ( 'NONE', #100, #104, #116 ) ;
#148 = ORIENTED_EDGE ( 'NONE', *, *, #184, .F. ) ;
#149 =( CONVERSION_BASED_UNIT ( 'INCH', #132 ) LENGTH_UNIT ( ) NAMED_UNIT ( #150 ) );
#150 = DIMENSIONAL_EXPONENTS ( 1.000000000000000000, 0.0000000000000000000, 0.0000000000000000000, 0.0000000000000000000, 0.0000000000000000000, 0.0000000000000000000, 0.0000000000000000000 ) ;
#151 =( LENGTH_UNIT ( ) NAMED_UNIT ( * ) SI_UNIT ( $, .METRE. ) );
#152 = ORIENTED_EDGE ( 'NONE', *, *, #170, .F. ) ;
#153 = DIRECTION ( 'NONE',  ( -0.0000000000000000000, -0.0000000000000000000, -1.000000000000000000 ) ) ;
#154 = ADVANCED_FACE ( 'NONE', ( #98 ), #1, .F. ) ;
#155 = FILL_AREA_STYLE_COLOUR ( '', #203 ) ;
#156 = PRODUCT_RELATED_PRODUCT_CATEGORY ( 'part', '', ( #29 ) ) ;
#157 = ORIENTED_EDGE ( 'NONE', *, *, #198, .T. ) ;
#158 = ORIENTED_EDGE ( 'NONE', *, *, #198, .F. ) ;
#159 = CARTESIAN_POINT ( 'NONE',  ( 0.0000000000000000000, 0.0000000000000000000, 0.0000000000000000000 ) ) ;
#160 = PRODUCT_DEFINITION_FORMATION_WITH_SPECIFIED_SOURCE ( 'ANY', '', #29, .NOT_KNOWN. ) ;
#161 = VERTEX_POINT ( 'NONE', #61 ) ;
#162 = PRODUCT_DEFINITION ( 'UNKNOWN', '', #160, #9 ) ;
#163 = LINE ( 'NONE', #172, #138 ) ;
#164 = AXIS2_PLACEMENT_3D ( 'NONE', #159, #110, #101 ) ;
#165 = ORIENTED_EDGE ( 'NONE', *, *, #39, .F. ) ;
#166 = CARTESIAN_POINT ( 'NONE',  ( -0.06249999999999995100, -0.06249999999999997900, -6.000000000000000900 ) ) ;
#167 = ORIENTED_EDGE ( 'NONE', *, *, #210, .T. ) ;
#168 = CARTESIAN_POINT ( 'NONE',  ( 0.06250000000000005600, -0.06249999999999997900, 6.000000000000000900 ) ) ;
#169 = CARTESIAN_POINT ( 'NONE',  ( -0.06249999999999995100, 0.06250000000000005600, 6.000000000000000900 ) ) ;
#170 = EDGE_CURVE ( 'NONE', #82, #76, #15, .T. ) ;
#171 = FACE_OUTER_BOUND ( 'NONE', #130, .T. ) ;
#172 = CARTESIAN_POINT ( 'NONE',  ( 0.06250000000000005600, 0.06250000000000005600, 6.000000000000000900 ) ) ;
#173 = DIRECTION ( 'NONE',  ( -1.000000000000000000, 0.0000000000000000000, -0.0000000000000000000 ) ) ;
#174 = FACE_OUTER_BOUND ( 'NONE', #56, .T. ) ;
#175 = CARTESIAN_POINT ( 'NONE',  ( -0.06249999999999995100, 0.06250000000000005600, 6.000000000000000900 ) ) ;
#176 = EDGE_CURVE ( 'NONE', #91, #82, #73, .T. ) ;
#177 = DIRECTION ( 'NONE',  ( -1.000000000000000000, -0.0000000000000000000, -0.0000000000000000000 ) ) ;
#178 = VERTEX_POINT ( 'NONE', #19 ) ;
#179 = DIRECTION ( 'NONE',  ( 0.0000000000000000000, 0.0000000000000000000, -1.000000000000000000 ) ) ;
#180 = LINE ( 'NONE', #117, #209 ) ;
#181 = DIRECTION ( 'NONE',  ( 0.0000000000000000000, 1.000000000000000000, 0.0000000000000000000 ) ) ;
#182 = ORIENTED_EDGE ( 'NONE', *, *, #193, .F. ) ;
#183 = CARTESIAN_POINT ( 'NONE',  ( 0.06250000000000005600, 0.06250000000000005600, 6.000000000000000900 ) ) ;
#184 = EDGE_CURVE ( 'NONE', #178, #144, #112, .T. ) ;
#185 = PLANE ( 'NONE',  #129 ) ;
#186 = VECTOR ( 'NONE', #177, 39.37007874015748100 ) ;
#187 =( GEOMETRIC_REPRESENTATION_CONTEXT ( 3 ) GLOBAL_UNCERTAINTY_ASSIGNED_CONTEXT ( ( #28 ) ) GLOBAL_UNIT_ASSIGNED_CONTEXT ( ( #118, #115, #113 ) ) REPRESENTATION_CONTEXT ( 'NONE', 'WORKASPACE' ) );
#188 = EDGE_CURVE ( 'NONE', #82, #178, #124, .T. ) ;
#189 = MECHANICAL_DESIGN_GEOMETRIC_PRESENTATION_REPRESENTATION (  '', ( #206 ), #187 ) ;
#190 = EDGE_CURVE ( 'NONE', #91, #75, #163, .T. ) ;
#191 = DIRECTION ( 'NONE',  ( 0.0000000000000000000, -0.0000000000000000000, -1.000000000000000000 ) ) ;
#192 = EDGE_CURVE ( 'NONE', #161, #75, #17, .T. ) ;
#193 = EDGE_CURVE ( 'NONE', #141, #161, #180, .T. ) ;
#194 = EDGE_CURVE ( 'NONE', #76, #144, #80, .T. ) ;
#195 = ORIENTED_EDGE ( 'NONE', *, *, #51, .T. ) ;
#196 = DIRECTION ( 'NONE',  ( -0.0000000000000000000, -1.000000000000000000, -0.0000000000000000000 ) ) ;
#197 = DIRECTION ( 'NONE',  ( -0.0000000000000000000, -0.0000000000000000000, -1.000000000000000000 ) ) ;
#198 = EDGE_CURVE ( 'NONE', #144, #161, #25, .T. ) ;
#199 = CARTESIAN_POINT ( 'NONE',  ( -0.06249999999999995100, -0.06249999999999997900, 6.000000000000000900 ) ) ;
#200 = DIRECTION ( 'NONE',  ( 1.000000000000000000, 0.0000000000000000000, 0.0000000000000000000 ) ) ;
#201 = PRESENTATION_LAYER_ASSIGNMENT (  '', '', ( #206 ) ) ;
#202 = CARTESIAN_POINT ( 'NONE',  ( -0.06249999999999995100, 0.06250000000000005600, 6.000000000000000900 ) ) ;
#203 = COLOUR_RGB ( '',0.7529411764705882200, 0.7529411764705882200, 0.7529411764705882200 ) ;
#204 = ADVANCED_FACE ( 'NONE', ( #174 ), #185, .F. ) ;
#205 = ORIENTED_EDGE ( 'NONE', *, *, #188, .F. ) ;
#206 = STYLED_ITEM ( 'NONE', ( #8 ), #81 ) ;
#207 = CLOSED_SHELL ( 'NONE', ( #95, #154, #34, #35, #204, #33 ) ) ;
#208 = UNCERTAINTY_MEASURE_WITH_UNIT (LENGTH_MEASURE( 1.000000000000000100E-005 ), #149, 'distance_accuracy_value', 'NONE');
#209 = VECTOR ( 'NONE', #18, 39.37007874015748100 ) ;
#210 = EDGE_CURVE ( 'NONE', #141, #91, #109, .T. ) ;
#211 = ORIENTED_EDGE ( 'NONE', *, *, #170, .T. ) ;
ENDSEC;
END-ISO-10303-21;
