ISO-10303-21;
HEADER;
FILE_DESCRIPTION (( 'STEP AP203' ),
    '1' );
FILE_NAME ('217-2758.20121205.STEP',
    '2012-12-05T22:23:59',
    ( 'svradm' ),
    ( 'Microsoft' ),
    'SwSTEP 2.0',
    'SolidWorks 2012',
    '' );
FILE_SCHEMA (( 'CONFIG_CONTROL_DESIGN' ));
ENDSEC;

DATA;
#1 = DESIGN_CONTEXT ( 'detailed design', #329, 'design' ) ;
#2 = PRODUCT_DEFINITION_SHAPE ( 'NONE', 'NONE',  #205 ) ;
#3 = MANIFOLD_SOLID_BREP ( 'Boss-Extrude1', #134 ) ;
#4 = ADVANCED_BREP_SHAPE_REPRESENTATION ( '217-2758.20121205', ( #3, #207 ), #197 ) ;
#5 = UNCERTAINTY_MEASURE_WITH_UNIT (LENGTH_MEASURE( 1.000000000000000100E-005 ), #256, 'distance_accuracy_value', 'NONE');
#6 = FACE_OUTER_BOUND ( 'NONE', #97, .T. ) ;
#7 = LINE ( 'NONE', #298, #101 ) ;
#8 = LOCAL_TIME ( 16, 23, 59.00000000000000000, #25 ) ;
#9 = ORIENTED_EDGE ( 'NONE', *, *, #217, .F. ) ;
#10 = ORIENTED_EDGE ( 'NONE', *, *, #234, .T. ) ;
#11 = LINE ( 'NONE', #292, #93 ) ;
#12 = APPROVAL_PERSON_ORGANIZATION ( #173, #233, #322 ) ;
#13 = ORIENTED_EDGE ( 'NONE', *, *, #240, .F. ) ;
#14 = ORIENTED_EDGE ( 'NONE', *, *, #209, .T. ) ;
#15 = APPROVAL_DATE_TIME ( #176, #233 ) ;
#16 = ORIENTED_EDGE ( 'NONE', *, *, #228, .F. ) ;
#17 = LINE ( 'NONE', #306, #54 ) ;
#18 = ORIENTED_EDGE ( 'NONE', *, *, #213, .T. ) ;
#19 = VECTOR ( 'NONE', #260, 1000.000000000000200 ) ;
#20 = FACE_OUTER_BOUND ( 'NONE', #111, .T. ) ;
#21 = CALENDAR_DATE ( 2012, 5, 12 ) ;
#22 = PERSON_AND_ORGANIZATION ( #246, #51 ) ;
#23 = LOCAL_TIME ( 16, 23, 59.00000000000000000, #129 ) ;
#24 = CALENDAR_DATE ( 2012, 5, 12 ) ;
#25 = COORDINATED_UNIVERSAL_TIME_OFFSET ( 6, 0, .BEHIND. ) ;
#26 = DATE_AND_TIME ( #149, #8 ) ;
#27 = LOCAL_TIME ( 16, 23, 59.00000000000000000, #133 ) ;
#28 = ORIENTED_EDGE ( 'NONE', *, *, #216, .F. ) ;
#29 = ORIENTED_EDGE ( 'NONE', *, *, #211, .F. ) ;
#30 = PERSON_AND_ORGANIZATION ( #246, #51 ) ;
#31 = ORIENTED_EDGE ( 'NONE', *, *, #214, .F. ) ;
#32 = SHAPE_DEFINITION_REPRESENTATION ( #2, #4 ) ;
#33 = VECTOR ( 'NONE', #271, 1000.000000000000000 ) ;
#34 = LINE ( 'NONE', #262, #45 ) ;
#35 = FACE_OUTER_BOUND ( 'NONE', #87, .T. ) ;
#36 = VECTOR ( 'NONE', #284, 1000.000000000000100 ) ;
#37 = LINE ( 'NONE', #269, #39 ) ;
#38 = VECTOR ( 'NONE', #274, 1000.000000000000000 ) ;
#39 = VECTOR ( 'NONE', #264, 1000.000000000000000 ) ;
#40 = LINE ( 'NONE', #283, #41 ) ;
#41 = VECTOR ( 'NONE', #281, 1000.000000000000200 ) ;
#42 = LINE ( 'NONE', #273, #33 ) ;
#43 = LINE ( 'NONE', #275, #38 ) ;
#44 = LINE ( 'NONE', #280, #52 ) ;
#45 = VECTOR ( 'NONE', #285, 1000.000000000000000 ) ;
#46 = LINE ( 'NONE', #259, #47 ) ;
#47 = VECTOR ( 'NONE', #258, 1000.000000000000000 ) ;
#48 = APPROVAL_PERSON_ORGANIZATION ( #22, #204, #324 ) ;
#49 = ORIENTED_EDGE ( 'NONE', *, *, #219, .F. ) ;
#50 = CYLINDRICAL_SURFACE ( 'NONE', #200, 9.525000000000000400 ) ;
#51 = ORGANIZATION ( 'UNSPECIFIED', 'UNSPECIFIED', '' ) ;
#52 = VECTOR ( 'NONE', #277, 1000.000000000000000 ) ;
#53 = LINE ( 'NONE', #261, #19 ) ;
#54 = VECTOR ( 'NONE', #302, 1000.000000000000200 ) ;
#55 = VECTOR ( 'NONE', #356, 1000.000000000000200 ) ;
#56 = PERSON_AND_ORGANIZATION ( #246, #51 ) ;
#57 = ORIENTED_EDGE ( 'NONE', *, *, #212, .F. ) ;
#58 = CIRCLE ( 'NONE', #202, 9.525000000000000400 ) ;
#59 = CIRCLE ( 'NONE', #222, 9.525000000000000400 ) ;
#60 = VECTOR ( 'NONE', #293, 1000.000000000000000 ) ;
#61 = VECTOR ( 'NONE', #357, 1000.000000000000000 ) ;
#62 = EDGE_LOOP ( 'NONE', ( #31, #28, #29, #136, #57, #16 ) ) ;
#63 = ORIENTED_EDGE ( 'NONE', *, *, #242, .T. ) ;
#64 = FACE_OUTER_BOUND ( 'NONE', #108, .T. ) ;
#65 = FACE_OUTER_BOUND ( 'NONE', #106, .T. ) ;
#66 = VERTEX_POINT ( 'NONE', #290 ) ;
#67 = LINE ( 'NONE', #307, #151 ) ;
#68 = VERTEX_POINT ( 'NONE', #291 ) ;
#69 = CALENDAR_DATE ( 2012, 5, 12 ) ;
#70 = VERTEX_POINT ( 'NONE', #282 ) ;
#71 = LOCAL_TIME ( 16, 23, 59.00000000000000000, #167 ) ;
#72 = VECTOR ( 'NONE', #304, 1000.000000000000000 ) ;
#73 = ORIENTED_EDGE ( 'NONE', *, *, #240, .T. ) ;
#74 = VERTEX_POINT ( 'NONE', #266 ) ;
#75 = VERTEX_POINT ( 'NONE', #265 ) ;
#76 = VERTEX_POINT ( 'NONE', #343 ) ;
#77 = FACE_OUTER_BOUND ( 'NONE', #114, .T. ) ;
#78 = CYLINDRICAL_SURFACE ( 'NONE', #193, 9.525000000000000400 ) ;
#79 = CALENDAR_DATE ( 2012, 5, 12 ) ;
#80 = LINE ( 'NONE', #362, #55 ) ;
#81 = EDGE_LOOP ( 'NONE', ( #88, #10, #131, #137, #120, #63 ) ) ;
#82 = ORIENTED_EDGE ( 'NONE', *, *, #218, .F. ) ;
#83 = LINE ( 'NONE', #250, #90 ) ;
#84 = EDGE_LOOP ( 'NONE', ( #49, #174, #128, #154 ) ) ;
#85 = FACE_OUTER_BOUND ( 'NONE', #96, .T. ) ;
#86 = FACE_OUTER_BOUND ( 'NONE', #84, .T. ) ;
#87 = EDGE_LOOP ( 'NONE', ( #150, #168 ) ) ;
#88 = ORIENTED_EDGE ( 'NONE', *, *, #230, .T. ) ;
#89 = LINE ( 'NONE', #303, #119 ) ;
#90 = VECTOR ( 'NONE', #366, 1000.000000000000000 ) ;
#91 = LINE ( 'NONE', #363, #36 ) ;
#92 = CIRCLE ( 'NONE', #194, 9.525000000000000400 ) ;
#93 = VECTOR ( 'NONE', #372, 1000.000000000000100 ) ;
#94 = LINE ( 'NONE', #358, #61 ) ;
#95 = LINE ( 'NONE', #305, #72 ) ;
#96 = EDGE_LOOP ( 'NONE', ( #126, #169, #130, #123 ) ) ;
#97 = EDGE_LOOP ( 'NONE', ( #161, #146, #159, #166 ) ) ;
#98 = EDGE_LOOP ( 'NONE', ( #9, #172, #14, #18 ) ) ;
#99 = FACE_OUTER_BOUND ( 'NONE', #98, .T. ) ;
#100 = VERTEX_POINT ( 'NONE', #376 ) ;
#101 = VECTOR ( 'NONE', #371, 1000.000000000000000 ) ;
#102 = APPROVAL_DATE_TIME ( #162, #204 ) ;
#103 = VECTOR ( 'NONE', #301, 1000.000000000000000 ) ;
#104 = CIRCLE ( 'NONE', #195, 9.525000000000000400 ) ;
#105 = FACE_BOUND ( 'NONE', #81, .T. ) ;
#106 = EDGE_LOOP ( 'NONE', ( #127, #132, #141, #140 ) ) ;
#107 = LINE ( 'NONE', #297, #60 ) ;
#108 = EDGE_LOOP ( 'NONE', ( #164, #13, #143, #165 ) ) ;
#109 = VERTEX_POINT ( 'NONE', #270 ) ;
#110 = VERTEX_POINT ( 'NONE', #279 ) ;
#111 = EDGE_LOOP ( 'NONE', ( #156, #82 ) ) ;
#112 = VERTEX_POINT ( 'NONE', #263 ) ;
#113 = VERTEX_POINT ( 'NONE', #375 ) ;
#114 = EDGE_LOOP ( 'NONE', ( #153, #158, #163, #157 ) ) ;
#115 = VERTEX_POINT ( 'NONE', #345 ) ;
#116 = VERTEX_POINT ( 'NONE', #311 ) ;
#117 = EDGE_LOOP ( 'NONE', ( #138, #135, #142, #73 ) ) ;
#118 = VERTEX_POINT ( 'NONE', #344 ) ;
#119 = VECTOR ( 'NONE', #300, 1000.000000000000000 ) ;
#120 = ORIENTED_EDGE ( 'NONE', *, *, #208, .T. ) ;
#121 = VERTEX_POINT ( 'NONE', #374 ) ;
#122 = APPROVAL_DATE_TIME ( #147, #196 ) ;
#123 = ORIENTED_EDGE ( 'NONE', *, *, #238, .T. ) ;
#124 = VERTEX_POINT ( 'NONE', #248 ) ;
#125 = FACE_BOUND ( 'NONE', #62, .T. ) ;
#126 = ORIENTED_EDGE ( 'NONE', *, *, #215, .F. ) ;
#127 = ORIENTED_EDGE ( 'NONE', *, *, #208, .F. ) ;
#128 = ORIENTED_EDGE ( 'NONE', *, *, #218, .T. ) ;
#129 = COORDINATED_UNIVERSAL_TIME_OFFSET ( 6, 0, .BEHIND. ) ;
#130 = ORIENTED_EDGE ( 'NONE', *, *, #212, .T. ) ;
#131 = ORIENTED_EDGE ( 'NONE', *, *, #232, .T. ) ;
#132 = ORIENTED_EDGE ( 'NONE', *, *, #238, .F. ) ;
#133 = COORDINATED_UNIVERSAL_TIME_OFFSET ( 6, 0, .BEHIND. ) ;
#134 = CLOSED_SHELL ( 'NONE', ( #180, #184, #186, #177, #179, #183, #182, #178, #181, #185 ) ) ;
#135 = ORIENTED_EDGE ( 'NONE', *, *, #236, .F. ) ;
#136 = ORIENTED_EDGE ( 'NONE', *, *, #226, .F. ) ;
#137 = ORIENTED_EDGE ( 'NONE', *, *, #215, .T. ) ;
#138 = ORIENTED_EDGE ( 'NONE', *, *, #242, .F. ) ;
#139 = PERSON_AND_ORGANIZATION ( #246, #51 ) ;
#140 = ORIENTED_EDGE ( 'NONE', *, *, #236, .T. ) ;
#141 = ORIENTED_EDGE ( 'NONE', *, *, #226, .T. ) ;
#142 = ORIENTED_EDGE ( 'NONE', *, *, #211, .T. ) ;
#143 = ORIENTED_EDGE ( 'NONE', *, *, #216, .T. ) ;
#144 = LOCAL_TIME ( 16, 23, 59.00000000000000000, #155 ) ;
#145 = DATE_AND_TIME ( #79, #71 ) ;
#146 = ORIENTED_EDGE ( 'NONE', *, *, #225, .F. ) ;
#147 = DATE_AND_TIME ( #24, #27 ) ;
#148 = LINE ( 'NONE', #299, #103 ) ;
#149 = CALENDAR_DATE ( 2012, 5, 12 ) ;
#150 = ORIENTED_EDGE ( 'NONE', *, *, #220, .T. ) ;
#151 = VECTOR ( 'NONE', #310, 1000.000000000000000 ) ;
#152 = PERSON_AND_ORGANIZATION ( #246, #51 ) ;
#153 = ORIENTED_EDGE ( 'NONE', *, *, #232, .F. ) ;
#154 = ORIENTED_EDGE ( 'NONE', *, *, #209, .F. ) ;
#155 = COORDINATED_UNIVERSAL_TIME_OFFSET ( 6, 0, .BEHIND. ) ;
#156 = ORIENTED_EDGE ( 'NONE', *, *, #213, .F. ) ;
#157 = ORIENTED_EDGE ( 'NONE', *, *, #239, .T. ) ;
#158 = ORIENTED_EDGE ( 'NONE', *, *, #244, .F. ) ;
#159 = ORIENTED_EDGE ( 'NONE', *, *, #214, .T. ) ;
#160 = PERSON_AND_ORGANIZATION ( #246, #51 ) ;
#161 = ORIENTED_EDGE ( 'NONE', *, *, #234, .F. ) ;
#162 = DATE_AND_TIME ( #21, #144 ) ;
#163 = ORIENTED_EDGE ( 'NONE', *, *, #228, .T. ) ;
#164 = ORIENTED_EDGE ( 'NONE', *, *, #230, .F. ) ;
#165 = ORIENTED_EDGE ( 'NONE', *, *, #225, .T. ) ;
#166 = ORIENTED_EDGE ( 'NONE', *, *, #244, .T. ) ;
#167 = COORDINATED_UNIVERSAL_TIME_OFFSET ( 6, 0, .BEHIND. ) ;
#168 = ORIENTED_EDGE ( 'NONE', *, *, #219, .T. ) ;
#169 = ORIENTED_EDGE ( 'NONE', *, *, #239, .F. ) ;
#170 = PERSON_AND_ORGANIZATION ( #246, #51 ) ;
#171 = FACE_OUTER_BOUND ( 'NONE', #117, .T. ) ;
#172 = ORIENTED_EDGE ( 'NONE', *, *, #220, .F. ) ;
#173 = PERSON_AND_ORGANIZATION ( #246, #51 ) ;
#174 = ORIENTED_EDGE ( 'NONE', *, *, #217, .T. ) ;
#175 = APPROVAL_PERSON_ORGANIZATION ( #139, #196, #315 ) ;
#176 = DATE_AND_TIME ( #69, #23 ) ;
#177 = ADVANCED_FACE ( 'NONE', ( #99 ), #78, .T. ) ;
#178 = ADVANCED_FACE ( 'NONE', ( #85 ), #286, .T. ) ;
#179 = ADVANCED_FACE ( 'NONE', ( #64 ), #348, .T. ) ;
#180 = ADVANCED_FACE ( 'NONE', ( #86 ), #50, .T. ) ;
#181 = ADVANCED_FACE ( 'NONE', ( #65 ), #351, .T. ) ;
#182 = ADVANCED_FACE ( 'NONE', ( #77 ), #341, .T. ) ;
#183 = ADVANCED_FACE ( 'NONE', ( #6 ), #278, .T. ) ;
#184 = ADVANCED_FACE ( 'NONE', ( #35, #125 ), #340, .T. ) ;
#185 = ADVANCED_FACE ( 'NONE', ( #171 ), #313, .T. ) ;
#186 = ADVANCED_FACE ( 'NONE', ( #20, #105 ), #314, .F. ) ;
#187 = SECURITY_CLASSIFICATION ( '', '', #319 ) ;
#188 = CC_DESIGN_SECURITY_CLASSIFICATION ( #187, ( #237 ) ) ;
#189 = PRODUCT_RELATED_PRODUCT_CATEGORY ( 'detail', '', ( #245 ) ) ;
#190 = AXIS2_PLACEMENT_3D ( 'NONE', #373, #288, #354 ) ;
#191 = CC_DESIGN_PERSON_AND_ORGANIZATION_ASSIGNMENT ( #30, #318, ( #187 ) ) ;
#192 = CC_DESIGN_APPROVAL ( #196, ( #187 ) ) ;
#193 = AXIS2_PLACEMENT_3D ( 'NONE', #251, #247, #287 ) ;
#194 = AXIS2_PLACEMENT_3D ( 'NONE', #361, #360, #359 ) ;
#195 = AXIS2_PLACEMENT_3D ( 'NONE', #367, #365, #364 ) ;
#196 = APPROVAL ( #316, 'UNSPECIFIED' ) ;
#197 =( GEOMETRIC_REPRESENTATION_CONTEXT ( 3 ) GLOBAL_UNCERTAINTY_ASSIGNED_CONTEXT ( ( #5 ) ) GLOBAL_UNIT_ASSIGNED_CONTEXT ( ( #256, #255, #254 ) ) REPRESENTATION_CONTEXT ( 'NONE', 'WORKASPACE' ) );
#198 = AXIS2_PLACEMENT_3D ( 'NONE', #268, #377, #337 ) ;
#199 = AXIS2_PLACEMENT_3D ( 'NONE', #353, #272, #276 ) ;
#200 = AXIS2_PLACEMENT_3D ( 'NONE', #349, #352, #336 ) ;
#201 = AXIS2_PLACEMENT_3D ( 'NONE', #350, #267, #347 ) ;
#202 = AXIS2_PLACEMENT_3D ( 'NONE', #370, #369, #368 ) ;
#203 = CC_DESIGN_APPROVAL ( #204, ( #205 ) ) ;
#204 = APPROVAL ( #327, 'UNSPECIFIED' ) ;
#205 = PRODUCT_DEFINITION ( 'UNKNOWN', '', #237, #1 ) ;
#206 = CC_DESIGN_PERSON_AND_ORGANIZATION_ASSIGNMENT ( #56, #330, ( #245 ) ) ;
#207 = AXIS2_PLACEMENT_3D ( 'NONE', #257, #252, #332 ) ;
#208 = EDGE_CURVE ( 'NONE', #124, #115, #95, .T. ) ;
#209 = EDGE_CURVE ( 'NONE', #118, #75, #67, .T. ) ;
#210 = AXIS2_PLACEMENT_3D ( 'NONE', #342, #338, #289 ) ;
#211 = EDGE_CURVE ( 'NONE', #76, #68, #17, .T. ) ;
#212 = EDGE_CURVE ( 'NONE', #74, #113, #89, .T. ) ;
#213 = EDGE_CURVE ( 'NONE', #75, #116, #59, .T. ) ;
#214 = EDGE_CURVE ( 'NONE', #110, #112, #148, .T. ) ;
#215 = EDGE_CURVE ( 'NONE', #109, #124, #107, .T. ) ;
#216 = EDGE_CURVE ( 'NONE', #68, #110, #11, .T. ) ;
#217 = EDGE_CURVE ( 'NONE', #100, #116, #7, .T. ) ;
#218 = EDGE_CURVE ( 'NONE', #116, #75, #58, .T. ) ;
#219 = EDGE_CURVE ( 'NONE', #100, #118, #104, .T. ) ;
#220 = EDGE_CURVE ( 'NONE', #118, #100, #92, .T. ) ;
#221 = AXIS2_PLACEMENT_3D ( 'NONE', #339, #309, #308 ) ;
#222 = AXIS2_PLACEMENT_3D ( 'NONE', #296, #295, #294 ) ;
#223 = AXIS2_PLACEMENT_3D ( 'NONE', #312, #333, #334 ) ;
#224 = AXIS2_PLACEMENT_3D ( 'NONE', #335, #355, #346 ) ;
#225 = EDGE_CURVE ( 'NONE', #110, #70, #83, .T. ) ;
#226 = EDGE_CURVE ( 'NONE', #113, #76, #94, .T. ) ;
#227 = CC_DESIGN_DATE_AND_TIME_ASSIGNMENT ( #145, #325, ( #205 ) ) ;
#228 = EDGE_CURVE ( 'NONE', #112, #74, #80, .T. ) ;
#229 = CC_DESIGN_PERSON_AND_ORGANIZATION_ASSIGNMENT ( #170, #321, ( #237 ) ) ;
#230 = EDGE_CURVE ( 'NONE', #121, #70, #91, .T. ) ;
#231 = CC_DESIGN_APPROVAL ( #233, ( #237 ) ) ;
#232 = EDGE_CURVE ( 'NONE', #66, #109, #40, .T. ) ;
#233 = APPROVAL ( #323, 'UNSPECIFIED' ) ;
#234 = EDGE_CURVE ( 'NONE', #70, #66, #44, .T. ) ;
#235 = CC_DESIGN_PERSON_AND_ORGANIZATION_ASSIGNMENT ( #152, #326, ( #205 ) ) ;
#236 = EDGE_CURVE ( 'NONE', #76, #115, #43, .T. ) ;
#237 = PRODUCT_DEFINITION_FORMATION_WITH_SPECIFIED_SOURCE ( 'ANY', '', #245, .NOT_KNOWN. ) ;
#238 = EDGE_CURVE ( 'NONE', #113, #124, #42, .T. ) ;
#239 = EDGE_CURVE ( 'NONE', #74, #109, #37, .T. ) ;
#240 = EDGE_CURVE ( 'NONE', #68, #121, #34, .T. ) ;
#241 = CC_DESIGN_DATE_AND_TIME_ASSIGNMENT ( #26, #317, ( #187 ) ) ;
#242 = EDGE_CURVE ( 'NONE', #115, #121, #53, .T. ) ;
#243 = CC_DESIGN_PERSON_AND_ORGANIZATION_ASSIGNMENT ( #160, #320, ( #237 ) ) ;
#244 = EDGE_CURVE ( 'NONE', #112, #66, #46, .T. ) ;
#245 = PRODUCT ( '217-2758.20121205', '217-2758.20121205', '', ( #331 ) ) ;
#246 = PERSON ( 'UNSPECIFIED', 'UNSPECIFIED', 'UNSPECIFIED', ('UNSPECIFIED'), ('UNSPECIFIED'), ('UNSPECIFIED') ) ;
#247 = DIRECTION ( 'NONE',  ( -0.0000000000000000000, -0.0000000000000000000, -1.000000000000000000 ) ) ;
#248 = CARTESIAN_POINT ( 'NONE',  ( 6.477000000000005600, -3.739497693541216100, -1.587499999999999900 ) ) ;
#249 = APPLICATION_CONTEXT ( 'configuration controlled 3d designs of mechanical parts and assemblies' ) ;
#250 = CARTESIAN_POINT ( 'NONE',  ( -6.477000000000004800, 3.739497693541213900, 1.587499999999999900 ) ) ;
#251 = CARTESIAN_POINT ( 'NONE',  ( 0.0000000000000000000, 0.0000000000000000000, 1.587499999999999900 ) ) ;
#252 = DIRECTION ( 'NONE',  ( 0.0000000000000000000, 0.0000000000000000000, 1.000000000000000000 ) ) ;
#253 = APPLICATION_PROTOCOL_DEFINITION ( 'international standard', 'config_control_design', 1994, #249 ) ;
#254 =( NAMED_UNIT ( * ) SI_UNIT ( $, .STERADIAN. ) SOLID_ANGLE_UNIT ( ) );
#255 =( NAMED_UNIT ( * ) PLANE_ANGLE_UNIT ( ) SI_UNIT ( $, .RADIAN. ) );
#256 =( LENGTH_UNIT ( ) NAMED_UNIT ( * ) SI_UNIT ( .MILLI., .METRE. ) );
#257 = CARTESIAN_POINT ( 'NONE',  ( 0.0000000000000000000, 0.0000000000000000000, 0.0000000000000000000 ) ) ;
#258 = DIRECTION ( 'NONE',  ( -0.0000000000000000000, -0.0000000000000000000, -1.000000000000000000 ) ) ;
#259 = CARTESIAN_POINT ( 'NONE',  ( -6.477000000000005600, -3.739497693541207600, 1.587499999999999900 ) ) ;
#260 = DIRECTION ( 'NONE',  ( -0.8660254037844383700, 0.5000000000000003300, 0.0000000000000000000 ) ) ;
#261 = CARTESIAN_POINT ( 'NONE',  ( 6.477000000000007400, 3.739497693541207200, -1.587499999999999900 ) ) ;
#262 = CARTESIAN_POINT ( 'NONE',  ( 3.035766082959412400E-015, 7.478995387082418800, 1.587499999999999900 ) ) ;
#263 = CARTESIAN_POINT ( 'NONE',  ( -6.477000000000005600, -3.739497693541207600, 1.587499999999999900 ) ) ;
#264 = DIRECTION ( 'NONE',  ( -0.0000000000000000000, -0.0000000000000000000, -1.000000000000000000 ) ) ;
#265 = CARTESIAN_POINT ( 'NONE',  ( -9.525000000000000400, 0.0000000000000000000, -1.587499999999999900 ) ) ;
#266 = CARTESIAN_POINT ( 'NONE',  ( 2.168404344971007300E-015, -7.478995387082419700, 1.587499999999999900 ) ) ;
#267 = DIRECTION ( 'NONE',  ( -1.000000000000000000, 2.319460550775292700E-016, 0.0000000000000000000 ) ) ;
#268 = CARTESIAN_POINT ( 'NONE',  ( -6.477000000000004800, 3.739497693541213900, 1.587499999999999900 ) ) ;
#269 = CARTESIAN_POINT ( 'NONE',  ( 2.168404344971007300E-015, -7.478995387082419700, 1.587499999999999900 ) ) ;
#270 = CARTESIAN_POINT ( 'NONE',  ( 2.168404344971007300E-015, -7.478995387082419700, -1.587499999999999900 ) ) ;
#271 = DIRECTION ( 'NONE',  ( -0.0000000000000000000, -0.0000000000000000000, -1.000000000000000000 ) ) ;
#272 = DIRECTION ( 'NONE',  ( 0.5000000000000002200, 0.8660254037844386000, -0.0000000000000000000 ) ) ;
#273 = CARTESIAN_POINT ( 'NONE',  ( 6.477000000000005600, -3.739497693541216100, 1.587499999999999900 ) ) ;
#274 = DIRECTION ( 'NONE',  ( -0.0000000000000000000, -0.0000000000000000000, -1.000000000000000000 ) ) ;
#275 = CARTESIAN_POINT ( 'NONE',  ( 6.477000000000007400, 3.739497693541207200, 1.587499999999999900 ) ) ;
#276 = DIRECTION ( 'NONE',  ( -0.8660254037844384900, 0.5000000000000001100, 0.0000000000000000000 ) ) ;
#277 = DIRECTION ( 'NONE',  ( -1.159730275387646600E-016, -1.000000000000000000, 0.0000000000000000000 ) ) ;
#278 = PLANE ( 'NONE',  #198 ) ;
#279 = CARTESIAN_POINT ( 'NONE',  ( -6.477000000000004800, 3.739497693541213900, 1.587499999999999900 ) ) ;
#280 = CARTESIAN_POINT ( 'NONE',  ( -6.477000000000004800, 3.739497693541213900, -1.587499999999999900 ) ) ;
#281 = DIRECTION ( 'NONE',  ( 0.8660254037844384900, -0.5000000000000001100, 0.0000000000000000000 ) ) ;
#282 = CARTESIAN_POINT ( 'NONE',  ( -6.477000000000004800, 3.739497693541213900, -1.587499999999999900 ) ) ;
#283 = CARTESIAN_POINT ( 'NONE',  ( -6.477000000000005600, -3.739497693541207600, -1.587499999999999900 ) ) ;
#284 = DIRECTION ( 'NONE',  ( -0.8660254037844389300, -0.4999999999999995000, 0.0000000000000000000 ) ) ;
#285 = DIRECTION ( 'NONE',  ( -0.0000000000000000000, -0.0000000000000000000, -1.000000000000000000 ) ) ;
#286 = PLANE ( 'NONE',  #190 ) ;
#287 = DIRECTION ( 'NONE',  ( -1.000000000000000000, 0.0000000000000000000, 0.0000000000000000000 ) ) ;
#288 = DIRECTION ( 'NONE',  ( -0.4999999999999995600, 0.8660254037844389300, 0.0000000000000000000 ) ) ;
#289 = DIRECTION ( 'NONE',  ( 1.000000000000000000, 0.0000000000000000000, -0.0000000000000000000 ) ) ;
#290 = CARTESIAN_POINT ( 'NONE',  ( -6.477000000000005600, -3.739497693541207600, -1.587499999999999900 ) ) ;
#291 = CARTESIAN_POINT ( 'NONE',  ( 3.035766082959412400E-015, 7.478995387082418800, 1.587499999999999900 ) ) ;
#292 = CARTESIAN_POINT ( 'NONE',  ( 3.035766082959412400E-015, 7.478995387082418800, 1.587499999999999900 ) ) ;
#293 = DIRECTION ( 'NONE',  ( 0.8660254037844389300, 0.4999999999999995000, 0.0000000000000000000 ) ) ;
#294 = DIRECTION ( 'NONE',  ( 1.000000000000000000, 0.0000000000000000000, 0.0000000000000000000 ) ) ;
#295 = DIRECTION ( 'NONE',  ( 0.0000000000000000000, 0.0000000000000000000, 1.000000000000000000 ) ) ;
#296 = CARTESIAN_POINT ( 'NONE',  ( 0.0000000000000000000, 0.0000000000000000000, -1.587499999999999900 ) ) ;
#297 = CARTESIAN_POINT ( 'NONE',  ( 2.168404344971007300E-015, -7.478995387082419700, -1.587499999999999900 ) ) ;
#298 = CARTESIAN_POINT ( 'NONE',  ( 9.525000000000000400, 1.166476076187854000E-015, 1.587499999999999900 ) ) ;
#299 = CARTESIAN_POINT ( 'NONE',  ( -6.477000000000004800, 3.739497693541213900, 1.587499999999999900 ) ) ;
#300 = DIRECTION ( 'NONE',  ( 0.8660254037844389300, 0.4999999999999995000, 0.0000000000000000000 ) ) ;
#301 = DIRECTION ( 'NONE',  ( -1.159730275387646600E-016, -1.000000000000000000, 0.0000000000000000000 ) ) ;
#302 = DIRECTION ( 'NONE',  ( -0.8660254037844383700, 0.5000000000000003300, 0.0000000000000000000 ) ) ;
#303 = CARTESIAN_POINT ( 'NONE',  ( 2.168404344971007300E-015, -7.478995387082419700, 1.587499999999999900 ) ) ;
#304 = DIRECTION ( 'NONE',  ( 2.319460550775292700E-016, 1.000000000000000000, 0.0000000000000000000 ) ) ;
#305 = CARTESIAN_POINT ( 'NONE',  ( 6.477000000000005600, -3.739497693541216100, -1.587499999999999900 ) ) ;
#306 = CARTESIAN_POINT ( 'NONE',  ( 6.477000000000007400, 3.739497693541207200, 1.587499999999999900 ) ) ;
#307 = CARTESIAN_POINT ( 'NONE',  ( -9.525000000000000400, 0.0000000000000000000, 1.587499999999999900 ) ) ;
#308 = DIRECTION ( 'NONE',  ( 1.000000000000000000, 0.0000000000000000000, -0.0000000000000000000 ) ) ;
#309 = DIRECTION ( 'NONE',  ( 0.0000000000000000000, 0.0000000000000000000, 1.000000000000000000 ) ) ;
#310 = DIRECTION ( 'NONE',  ( -0.0000000000000000000, -0.0000000000000000000, -1.000000000000000000 ) ) ;
#311 = CARTESIAN_POINT ( 'NONE',  ( 9.525000000000000400, 1.166476076187854000E-015, -1.587499999999999900 ) ) ;
#312 = CARTESIAN_POINT ( 'NONE',  ( 6.477000000000007400, 3.739497693541207200, 1.587499999999999900 ) ) ;
#313 = PLANE ( 'NONE',  #223 ) ;
#314 = PLANE ( 'NONE',  #221 ) ;
#315 = APPROVAL_ROLE ( '' ) ;
#316 = APPROVAL_STATUS ( 'not_yet_approved' ) ;
#317 = DATE_TIME_ROLE ( 'classification_date' ) ;
#318 = PERSON_AND_ORGANIZATION_ROLE ( 'classification_officer' ) ;
#319 = SECURITY_CLASSIFICATION_LEVEL ( 'unclassified' ) ;
#320 = PERSON_AND_ORGANIZATION_ROLE ( 'design_supplier' ) ;
#321 = PERSON_AND_ORGANIZATION_ROLE ( 'creator' ) ;
#322 = APPROVAL_ROLE ( '' ) ;
#323 = APPROVAL_STATUS ( 'not_yet_approved' ) ;
#324 = APPROVAL_ROLE ( '' ) ;
#325 = DATE_TIME_ROLE ( 'creation_date' ) ;
#326 = PERSON_AND_ORGANIZATION_ROLE ( 'creator' ) ;
#327 = APPROVAL_STATUS ( 'not_yet_approved' ) ;
#328 = APPLICATION_PROTOCOL_DEFINITION ( 'international standard', 'config_control_design', 1994, #329 ) ;
#329 = APPLICATION_CONTEXT ( 'configuration controlled 3d designs of mechanical parts and assemblies' ) ;
#330 = PERSON_AND_ORGANIZATION_ROLE ( 'design_owner' ) ;
#331 = MECHANICAL_CONTEXT ( 'NONE', #249, 'mechanical' ) ;
#332 = DIRECTION ( 'NONE',  ( 1.000000000000000000, 0.0000000000000000000, 0.0000000000000000000 ) ) ;
#333 = DIRECTION ( 'NONE',  ( -0.5000000000000004400, -0.8660254037844383700, 0.0000000000000000000 ) ) ;
#334 = DIRECTION ( 'NONE',  ( 0.8660254037844383700, -0.5000000000000004400, 0.0000000000000000000 ) ) ;
#335 = CARTESIAN_POINT ( 'NONE',  ( 3.035766082959412400E-015, 7.478995387082418800, 1.587499999999999900 ) ) ;
#336 = DIRECTION ( 'NONE',  ( -1.000000000000000000, 0.0000000000000000000, 0.0000000000000000000 ) ) ;
#337 = DIRECTION ( 'NONE',  ( 1.159730275387646600E-016, 1.000000000000000000, 0.0000000000000000000 ) ) ;
#338 = DIRECTION ( 'NONE',  ( 0.0000000000000000000, 0.0000000000000000000, 1.000000000000000000 ) ) ;
#339 = CARTESIAN_POINT ( 'NONE',  ( 0.0000000000000000000, 0.0000000000000000000, -1.587499999999999900 ) ) ;
#340 = PLANE ( 'NONE',  #210 ) ;
#341 = PLANE ( 'NONE',  #199 ) ;
#342 = CARTESIAN_POINT ( 'NONE',  ( 0.0000000000000000000, 0.0000000000000000000, 1.587499999999999900 ) ) ;
#343 = CARTESIAN_POINT ( 'NONE',  ( 6.477000000000007400, 3.739497693541209400, 1.587499999999999900 ) ) ;
#344 = CARTESIAN_POINT ( 'NONE',  ( -9.525000000000000400, 0.0000000000000000000, 1.587499999999999900 ) ) ;
#345 = CARTESIAN_POINT ( 'NONE',  ( 6.477000000000007400, 3.739497693541207200, -1.587499999999999900 ) ) ;
#346 = DIRECTION ( 'NONE',  ( 0.8660254037844389300, 0.4999999999999995000, 0.0000000000000000000 ) ) ;
#347 = DIRECTION ( 'NONE',  ( -2.319460550775292700E-016, -1.000000000000000000, 0.0000000000000000000 ) ) ;
#348 = PLANE ( 'NONE',  #224 ) ;
#349 = CARTESIAN_POINT ( 'NONE',  ( 0.0000000000000000000, 0.0000000000000000000, 1.587499999999999900 ) ) ;
#350 = CARTESIAN_POINT ( 'NONE',  ( 6.477000000000005600, -3.739497693541216100, 1.587499999999999900 ) ) ;
#351 = PLANE ( 'NONE',  #201 ) ;
#352 = DIRECTION ( 'NONE',  ( -0.0000000000000000000, -0.0000000000000000000, -1.000000000000000000 ) ) ;
#353 = CARTESIAN_POINT ( 'NONE',  ( -6.477000000000005600, -3.739497693541207600, 1.587499999999999900 ) ) ;
#354 = DIRECTION ( 'NONE',  ( -0.8660254037844389300, -0.4999999999999995600, 0.0000000000000000000 ) ) ;
#355 = DIRECTION ( 'NONE',  ( 0.4999999999999995000, -0.8660254037844389300, 0.0000000000000000000 ) ) ;
#356 = DIRECTION ( 'NONE',  ( 0.8660254037844384900, -0.5000000000000001100, 0.0000000000000000000 ) ) ;
#357 = DIRECTION ( 'NONE',  ( 2.319460550775292700E-016, 1.000000000000000000, 0.0000000000000000000 ) ) ;
#358 = CARTESIAN_POINT ( 'NONE',  ( 6.477000000000005600, -3.739497693541216100, 1.587499999999999900 ) ) ;
#359 = DIRECTION ( 'NONE',  ( 1.000000000000000000, 0.0000000000000000000, 0.0000000000000000000 ) ) ;
#360 = DIRECTION ( 'NONE',  ( 0.0000000000000000000, 0.0000000000000000000, 1.000000000000000000 ) ) ;
#361 = CARTESIAN_POINT ( 'NONE',  ( 0.0000000000000000000, 0.0000000000000000000, 1.587499999999999900 ) ) ;
#362 = CARTESIAN_POINT ( 'NONE',  ( -6.477000000000005600, -3.739497693541207600, 1.587499999999999900 ) ) ;
#363 = CARTESIAN_POINT ( 'NONE',  ( 3.035766082959412400E-015, 7.478995387082418800, -1.587499999999999900 ) ) ;
#364 = DIRECTION ( 'NONE',  ( 1.000000000000000000, 0.0000000000000000000, 0.0000000000000000000 ) ) ;
#365 = DIRECTION ( 'NONE',  ( 0.0000000000000000000, 0.0000000000000000000, 1.000000000000000000 ) ) ;
#366 = DIRECTION ( 'NONE',  ( -0.0000000000000000000, -0.0000000000000000000, -1.000000000000000000 ) ) ;
#367 = CARTESIAN_POINT ( 'NONE',  ( 0.0000000000000000000, 0.0000000000000000000, 1.587499999999999900 ) ) ;
#368 = DIRECTION ( 'NONE',  ( 1.000000000000000000, 0.0000000000000000000, 0.0000000000000000000 ) ) ;
#369 = DIRECTION ( 'NONE',  ( 0.0000000000000000000, 0.0000000000000000000, 1.000000000000000000 ) ) ;
#370 = CARTESIAN_POINT ( 'NONE',  ( 0.0000000000000000000, 0.0000000000000000000, -1.587499999999999900 ) ) ;
#371 = DIRECTION ( 'NONE',  ( -0.0000000000000000000, -0.0000000000000000000, -1.000000000000000000 ) ) ;
#372 = DIRECTION ( 'NONE',  ( -0.8660254037844389300, -0.4999999999999995000, 0.0000000000000000000 ) ) ;
#373 = CARTESIAN_POINT ( 'NONE',  ( 2.168404344971007300E-015, -7.478995387082419700, 1.587499999999999900 ) ) ;
#374 = CARTESIAN_POINT ( 'NONE',  ( 3.035766082959412400E-015, 7.478995387082422400, -1.587499999999999900 ) ) ;
#375 = CARTESIAN_POINT ( 'NONE',  ( 6.477000000000005600, -3.739497693541216100, 1.587499999999999900 ) ) ;
#376 = CARTESIAN_POINT ( 'NONE',  ( 9.525000000000000400, 1.166476076187854000E-015, 1.587499999999999900 ) ) ;
#377 = DIRECTION ( 'NONE',  ( 1.000000000000000000, -1.159730275387646600E-016, 0.0000000000000000000 ) ) ;
ENDSEC;
END-ISO-10303-21;
